Misc Traditional - Greensleeves Easy Chords & Tabs

 

Greensleeves Easy Chords & Tabs

Misc Traditional Chords & Tabs

Version: 1 Type: Tab 2 ratings
1 star 2 stars 3 stars 4 stars 5 stars
comments

Greensleeves Easy Tab

Simplified version of Greensleeves

E |--------|---------|----------|---------|----------|----------|----------|---------|
B |--------|---------|----------|---------|----------|----------|----------|---------|
G |--------|------0--|-2---3-2--|-0-------|----------|----------|----------|---------|
D |-----0--|-3-------|----------|------2--|-----0-2--|-3----0---|-0-----0--|-2-------|
A |--------|---------|----------|---------|-3--------|----------|-----4----|------4--|
E |--------|---------|----------|---------|----------|----------|----------|---------|

 |---------|---------|----------|---------|----------|----------|----------|---------|
 |---------|---------|----------|---------|----------|----------|----------|---------|
 |---------|------0--|-2---3-2--|-0-------|----------|----------|----------|---------|
 |------0--|-3-------|----------|------2--|-----0-2--|-3---2-0--|----------|-0----0--|
 |-0-------|---------|----------|---------|-3--------|----------|-4---2-4--|---------|
 |---------|---------|----------|---------|----------|----------|----------|---------|
[ Tab from: http://www.guitartabs.cc/tabs/m/misc_traditional/greensleeves_easy_tab.html ]
 |---------|---------|----------|---------|----------|----------|----------|---------|
 |---------|-1-------|-1---0----|---------|----------|----------|----------|---------|
 |---------|-2-------|-2---0-2--|-0-------|----------|----------|----------|---------|
 |-0-------|---------|-------3--|-2----2--|-----0-2--|-0----0---|-0-----0--|-2-------|
 |-0-------|---------|----------|---------|-3--------|-8--------|-----4----|------4--|
 |---------|---------|----------|---------|----------|----------|----------|---------|

 |---------|---------|----------|---------|----------|----------|----------|---------|
 |---------|-1-------|-1---0----|---------|----------|----------|----------|---------|
 |---------|-2-------|-2---0-2--|-0-------|----------|----------|----------|---------|
 |---------|---------|-------3--|-2----2--|-----0-2--|-3---2-0--|----------|-0-------|
 |-0-------|---------|----------|---------|-3--------|----------|-4---2-4--|---------|
 |---------|---------|----------|---------|----------|----------|----------|---------|

 |---------|
 |------2--|
 |---------|
 |-0-------|
 |-0-------|
 |---------|
Comments