Misc Traditional - Green Sleeves Chords & Tabs

 

Green Sleeves Chords & Tabs

Misc Traditional Chords & Tabs

Version: 3 Type: Tab 0 ratings
1 star 2 stars 3 stars 4 stars 5 stars
comments

Green Sleeves Tab

   
----------------------------------------------------------------------------
			     Green Sleeves
----------------------------------------------------------------------------
Tabbed by: Homer Gibson
Email: kevin_xen@msn.com

Tuning: Standard

e|-------0-3--2-0----------------------------------------------------------|
B|----1----3------3--0-------0--1-------------0----------------------------|
G|-2-------------------0--2-----2--2--2--1-2----1--------------------------|
D|-------------------------------------------------2-----------------------|
A|----0--3-3--------------------0-----0-------2----------------------------|
E|----------------3----3---------------------------0-----------------------|

e|-------0-3--2-0----------------------------------------------------------|
B|----1----3------3--0-------0--1--0---------------------------------------|
G|-2--------------------0--2----2-----2--1-----1--2--2---------------------|
D|------------------------------------------4-----2--2---------------------|
A|----0--3-0--------------------0-----------------0--0---------------------|
E|----------------3-----3----------------0---------------------------------|

e|----------0-3--2-0-------------------------------------------------------|
B|----1-------3------3--0-------0--1--------------0------------------------|
G|-2-----2-----------------0--2----2--2--2--1--2-----1---------------------|
D|------------------------------------------------------2------------------|
A|----0-----3-3--------------------0-----0--------2------------------------|
E|-------------------3-----3----------------------------0------------------|

e|----------0-3---2-0------------------------------------------------------|
B|----1-------3-------3--0--------0--1--0----------------------------------|
G|-2-----2------------------0--2-----2-----2--1-----1--2--2----------------|
D|-----------------------------------------------4-----2--2----------------|
A|----0-----3-3----------------------0-----------------0--0----------------|
E|--------------------3-----3-----------------0----------------------------|
[ Tab from: http://www.guitartabs.cc/tabs/m/misc_traditional/green_sleeves_tab_ver_3.html ]
e|-3----3--2-0-------------------------------------------------------------|
B|-0----0-------3--0--------0--1-------------0-----------------------------|
G|-0----0-------0-----0--2-----2--2--2--1-2-----1--------------------------|
D|--------------------0----------------------------2-----------------------|
A|-----------------------------0-----0-------2-----------------------------|
E|-3----3-------3-----3----------------------------0-----------------------|

e|-3----3--2-0-------------------------------------------------------------|
B|-0----0-------3--0--------0--1--0----------------------------------------|
G|-0----0-------0-----0--2-----2-----2--1-----1--2--2----------------------|
D|--------------------0--------------------4-----2--2----------------------|
A|-----------------------------0-----------------0--0----------------------|
E|-3----3-------3-----3-----------------0----------------------------------|

e|----------0-3--2-0-------------------------------------------------------|
B|----1-------3-------3--0--------0--1-------------0-----------------------|
G|-2-----2------------------0--2-----2--2--2--1-2-----1--------------------|
D|-------------------------------------------------------2-----------------|
A|----0-----3-3----------------------0-----0-------2-----------------------|
E|--------------------3-----3----------------------------0-----------------|

e|----------0-3---2-0------------------------------------------------------|
B|----1-------3-------3--0--------0--1--0----------------------------------|
G|-2-----2------------------0--2-----2-----2--1-----1--2--2----------------|
D|-----------------------------------------------4-----2--2----------------|
A|----0-----3-3----------------------0-----------------0--0----------------|
E|--------------------3-----3-----------------0----------------------------|

e|-3----3--2-0-------------------------------------------------------------|
B|-0----0-------3--0--------0--1-------------0-----------------------------|
G|-0----0-------0-----0--2-----2--2--2--1-2-----1--------------------------|
D|--------------------0----------------------------2-----------------------|
A|-----------------------------0-----0-------2-----------------------------|
E|-3----3-------3-----3----------------------------0-----------------------|

e|-3----3--2-0-------------------------------------------------------------|
B|-0----0-------3--0--------0--1--0----------------------------------------|
G|-0----0-------0-----0--2-----2-----2--1-----1--2--2----------------------|
D|--------------------0--------------------4-----2--2----------------------|
A|-----------------------------0-----------------0--0----------------------|
E|-3----3-------3-----3-----------------0----------------------------------|



| /  slide up
| \  slide down
| h  hammer-on
| p  pull-off
| ~  vibrato
| +  harmonic
| x  Mute note
============================================================================
Comments