Misc Traditional - Green Sleeves Chords & Tabs

 

Green Sleeves Chords & Tabs

Misc Traditional Chords & Tabs

Version: 2 Type: Tab 0 ratings
1 star 2 stars 3 stars 4 stars 5 stars
comments

Green Sleeves Tab

   
Green Sleeves (Simple)
Tabbed by: TheInquisitions@yahoo.com

-0-3-5-7-87-5------------------------0-3-5-7-87-5-----------------------------|
--------------7-3-3-5-8-55-4-5-7-4-0--------------7-3-3-5-8-7-5-4-2-4-5-------|
------------------------------------------------------------------------------|
------------------------------------------------------------------------------|
------------------------------------------------------------------------------|
------------------------------------------------------------------------------|


-10-10-9-7-5------------------------10-10-9-7-5-------------------------------|
-------------7-3-3-5-8-55-4-5-7-4-0-------------7-3-3-5-8-7-5-4-2-4-5-5-------|
------------------------------------------------------------------------------|
------------------------------------------------------------------------------|
------------------------------------------------------------------------------|
------------------------------------------------------------------------------|

Green Sleeves (Traditional)
Tabbed by: cscon143@uoft02.utoledo.edu (Erik Mayer)
[ Tab from: http://www.guitartabs.cc/tabs/m/misc_traditional/green_sleeves_tab_ver_2.html ]
         Am                G                 Am                E
|-----|--------0--1--0--|-----------------|-----------------|--------------|
|-----|--1--3-----------|--3--0--------0--|--1--------------|--0-----------|
|--2--|-----------------|--------0--2-----|-----2--2--1--2--|-----1-----2--|
|-----|-----------------|-----------------|-----------------|--------2-----|
|-----|--0-----0--------|-----------------|--0-----0--------|--2-----------|
|-----|-----------------|--3-----3--------|-----------------|--------0-----|

   Am                G                 Am       E           Am
|--------0--1--0--|-----------------|--------------------|-----------|
|--1--3-----------|--3--0--------0--|--1--0--------------|-----------|
|-----------------|--------0--2-----|--------2--1-----1--|--2--2--2--|
|-----------------|-----------------|--------------4-----|-----------|
|--0-----0--------|-----------------|--0-----0--2--------|--0-----0--|
|-----------------|--3-----3--------|--------------------|-----------|

   C              G                 Am                E
|--3--3--1--0--|-----------------|-----------------|-----------|
|--------------|--2--0--------0--|--1--------------|--0--------|
|--------------|--------0--2-----|-----2--2--1--2--|-----1-----|
|--------------|-----------------|-----------------|--------2--|
|--3--3--------|-----------------|--0-----0--------|--2--------|
|--------------|--3-----3--------|-----------------|--------0--|

   C              G                 Am       E           Am
|--3--3--1--0--|-----------------|--------------------|--------|
|--------------|--2--0--------0--|--1--0--------------|--------|
|--------------|--------0--2-----|--------2--1-----1--|--2--2--|
|--------------|-----------------|--------------4-----|--------|
|--3--3--------|-----------------|--0-----0-----------|--0--0--|
|--------------|--3-----3--------|-----------0--------|--------|
Comments