Misc Traditional - God Save The Queen Chords & Tabs

 

God Save The Queen Chords & Tabs

Misc Traditional Chords & Tabs

Version: 2 Type: Bass Tab 0 ratings
1 star 2 stars 3 stars 4 stars 5 stars
comments

God Save The Queen Bass Tab

-----------------------------------------------
               God Save The Queen
-----------------------------------------------
Tabbed by: Peter Smyth

Tuning: Standard

G|--------------------------------------------|
D|--------------------------------------------|
A|-----------------0-0-1-0--------------------|
E|-1-1-3-0--1-3-------------3-1----3-1-0-1----|
[ Tab from: http://www.guitartabs.cc/tabs/m/misc_traditional/god_save_the_queen_btab_ver_2.html ]
G|--------------------------------------------|
D|--------------------------------------------|
A|---01-3--3--3--3--1-0----1--1--1--1--0------|
E|-13------------------------------------3-1--|

G|--------------------------------------------|
D|--------------------0-----------------------|
A|-0-1-0------0--1-3------1-0-----------------|
E|-------3-1-------------------3-1------------|
        
Comments