Misc Traditional - For All The Saints Chords & Tabs

 

For All The Saints Chords & Tabs

Misc Traditional Chords & Tabs

Version: 1 Type: Tab 0 ratings
1 star 2 stars 3 stars 4 stars 5 stars
comments

For All The Saints Tab

   
For All The Saints. Music By Ralph Vaughn Williams. Transcribed 
for solo guitar by William Betts. 
The rhythim markings are pretty self-explanatory. 
hold for the number of beats listed above the chord. 
Asterisks are eighth notes.

r:1 1 1 1   3   1   1 1 1 1   3    1   2  1 1      
E|--------|--------|--------|--------|--------|
B|--3-----|--------|--------|--------|--------|
G|--0-4-2-|-0___---|--------|-4___-4-|2__-2-0-|
D|--0-5-4-|-2___-0-|2-5-7---|-5___---|2__-0-2-|
A|----5-3-|-2___-5-|3-5-7-5-|-5___---|4__-----|
E|--------|--------|----8---|--------|--------|
[ Tab from: http://www.guitartabs.cc/tabs/m/misc_traditional/for_all_the_saints_tab.html ]
r: 2   2   1 1 1 1   3    1  2   1 1  3    1 
E|--------|--------|--------|--------|--------|
B|--------|--------|--------|--------|3___-3--|
G|--------|--2-----|--------|0__-0-0-|4___-4--|
D|-4__-4__|5-2-4-2-|-0___-0-|5__-5-5-|5___-5--|
A|-5__-5__|5-0-5-4-|-5___-5-|5__-5-3-|5___----|
E|--------|--------|-5___-5-|--------|--------|

r:1 1 **** 2    2   1 ** 2   3     1* 1 1 2
E|--------|--------|0-------|--------|--------|
B|--------|-----3--|5-3--3__|-------0|--------|
G|5-7-5420|2___-0__|0--5-0__|0____-0-|5-4-0___|
D|5-7-5-0-|4___-0__|-----0__|5____-7-|5-5-7___|
A|3-5-5---|--------|--------|5____-5-|7-5-5___|
E|--------|--------|--------|3____---|--------|

r: 4
E|--------|
B|--------|
G|-0______|
D|-0______|
A|-2______|
E|--------| 

(Repeat five times and finish with a slow G chord)


Comments