Misc Traditional - Erev Shel Shoshanim Chords & Tabs

 

Erev Shel Shoshanim Chords & Tabs

Misc Traditional Chords & Tabs

Version: 1 Type: Tab 0 ratings
1 star 2 stars 3 stars 4 stars 5 stars
comments

Erev Shel Shoshanim Tab

   
#----------------------------------PLEASE NOTE---------------------------------#
#This file is the author's own work and represents their interpretation of the #
#song. You may only use this file for private study, scholarship, or research. #
#------------------------------------------------------------------------------##
From: kharding@lamar.ColoState.EDU (Karol Harding)
Subject: TAB/CHD: Erev Shel Shoshanim (hebrew)

This is a beautiful Israeli song which is sung in many 
different languages: 


EREV SHEL SHOSHANIM (HEBREW)
Tab by Karol Henderson Harding 1994
Key of Em -4/4 time

INTRO:

E|-7-7-5--7-5-3-|-5-5--3-2-0---|-2-2--0-2-----|-0------------|
B|-5------5-----|-5----------3-|-3--------3---|-0------------|
G|--------------|-5------------|--------------|-0------------|
D|--------------|-7------------|--------------|-2------------|
A|-7------7-----|-7------------|-2------------|-2------------|
E|--------------|--------------|--------------|-0------------|
 
VERSE: [A]
[ Tab from: http://www.guitartabs.cc/tabs/m/misc_traditional/erev_shel_shoshanim_tab.html ]
E|-0-0---0--3---|-5---------0--|-5-5-3--5-7---|-3------------|
B|-0---3----3---|-5------------|-5------------|-5---5--------|
G|--------------|----5---5-----|--------------|---4----------|
D|----------5---|------7-------|--------------|--------------|
A|--------------|-0------------|-7------------|--------------|
E|-0------------|--------------|--------------|-0------------|


E|-3--3-2-3--5--|-2----0-------|-2-2--0---2-3-|-0------------|
B|-3------------|-3--------3---|-3------------|-0------------|
G|-4------------|-2------------|-2------------|--------------|
D|-5------------|-0------------|-0------------|----2-2-5-7---|
A|--------------|--------------|--------------|--2-----------|
E|--------------|--------------|--------------|-0------------|

CHORUS: [B]

E|-7--7-5-7--3--|--5---------0-|-5-5--3-5--7--|-3------------|
B|-5------------|--5--5---5----|-5------------|-5------------|
G|--------------|--5----5------|--------------|--------------|
D|--------------|--7-----------|--------------|--------------|
A|-7------------|--0-----------|-0------------|--------------|
E|--------------|--------------|--------------|-0------------|


E|-3--3-2-3--5--|-2----0-------|-2-2--0---2-3-|-0------------|
B|-3------------|-3--------3---|-3------------|-0------------|
G|-4------------|-2------------|-2------------|--------------|
D|-5------------|-0------------|-0------------|-2------------|
A|--------------|--------------|--------------|-2------------|
E|--------------|--------------|--------------|-0------------|
Comments