Misc Traditional - Clementine Chords & Tabs

 

Clementine Chords & Tabs

Misc Traditional Chords & Tabs

Version: 1 Type: Tab 0 ratings
1 star 2 stars 3 stars 4 stars 5 stars
comments

Clementine Tab

   
#----------------------------------PLEASE NOTE---------------------------------#
#This file is the author's own work and represents their interpretation of the #
#song. You may only use this file for private study, scholarship, or research. #
#------------------------------------------------------------------------------#

Clementine

This traditional song has many different lyrics, hopefully these are somewhat close to 
the original…pretty simple way to play this song
[ Tab from: http://www.guitartabs.cc/tabs/m/misc_traditional/clementine_tab.html ]
Single note variation w/slides
  
E-----------------------------------------------------------------
B-----------------------------------------------------------------
G-----------------------------------------------------------------
D-----------------------------5—5s320—023--3--202-----20-----0----
A----3--33-----3s777--3---33s7--------------------3-3------2---3--
E-----------3--------------------------------------------3--------


Chords:  CGFCGC


Song works with just the chords or the single notes, but sounds best with a combination  
of picking/strumming:  pattern below gets the idea across…single strum on the first two  
C's, a couple strums of the first two G’s, and then just a simple down-up (du) strum  
over the last 4 chords.  

       C         C         G        G       F(du)     C(du)   G(du)    C(du)
E------0---------0---------3--------3------1---------0--------3--------0--
B------1---------1---------0--------0------1---------1--------0--------1--
G------0---------0---------0-0------0------2---------0--------0--------0--
D------2----22---2------2--0----32--0--02--3-----20--2-----2--0-----0--2--
A--33--3---------3-3--3----2--------2----------------3---3----2--2-----3--
E---------3----------------3--------3-------------------------3-----------
Comments