Misc Traditional - Camptown Races Chords & Tabs

 

Camptown Races Chords & Tabs

Misc Traditional Chords & Tabs

Version: 1 Type: Tab 2 ratings
1 star 2 stars 3 stars 4 stars 5 stars
comments

Camptown Races Tab

-----------------------
-----------------------
-----------------------
-----------------------
5-5---5-7-5------------
----7-------7-7-5-7-5--    Doo DA. Doo DA.
RIFF 1

[ Tab from: http://www.guitartabs.cc/tabs/m/misc_traditional/camptown_races_tab.html ]
-----------------------
-----------------------
-----------------------
-----------------------
5-5---5-7-5------------
----7-------7-5-5-7-5-3    Oh the doo dah day
RIFF 2


-----------------------
-----------------------
-----------------------
-----------------------
--5-5-7-10-7-7-10-7-5--
7----------------------
RIFF 3

Figure out the timing on your own. I'm positive you'll recognize this tune.


Comments