Misc Traditional - Barbara Allen Chords & Tabs

 

Barbara Allen Chords & Tabs

Misc Traditional Chords & Tabs

Version: 1 Type: Tab 0 ratings
1 star 2 stars 3 stars 4 stars 5 stars
comments

Barbara Allen Tab

   
#----------------------------------PLEASE NOTE---------------------------------#
#This file is the author's own work and represents their interpretation of the #
#song. You may only use this file for private study, scholarship, or research. #
#------------------------------------------------------------------------------##
Barbara Allen
Traditional


transcribed by: phaedrus@southwind.net


II-----------------Â means to bar second (II) fret for all notes beneath the dotted line.  This is optional, but it helps move things along.



       DA7      Bm D         E7            A
[ Tab from: http://www.guitartabs.cc/tabs/m/misc_traditional/barbara_allen_tab.html ]
e---2-----------------0--------------------------------------------|
b---3-----------------2-----3---------3-----3--------2------------|
g---2-----------------0-----4---------2-----1--------2------------|
d---0-----------------------4---------0-----2--------2------------|
a---------------------0-----2------------------------0------------|
e-------------------------------------2-----0---------------------|
   In Scarlet Town where I was born, There was a fair maid dwellin'.  Made
 
    G                        D              Bm                 D              G    A7   D
                              II--------------Â
e---------------------------------------------------0--3-----------|
b--3-------------3-----2-------3------3---------0--2--2-----------|
g--4---------0---2--------4-----------2---------0--0--3-----------|
d--5-------------4--------4---------------------0------0----0-----|
a-------------------------2------------------------0---------------|
e--------------------------------------2--------3------------------|
    ev'ry youth cry "Well - a - day,"         Her name was Barbara Allen.       All

    D                 Bm                           D                        E7       A
                       II------Â
e------2------------------------------------------------------------|
b------3------------3--------------------3----3-----2--------------|
g----2--------------4--------------------2----1-----2--------------|
d-0--------------4------------------0---------2-----2--------------|
a-------------2-------------------------------------0------0-------|
e-------------------------------2-------------0--------------------|
    in the merry month of May, When green buds they were swellin'      Young

   G                              D              Bm             D          G      A7     D
                                  II----------Â
e--------------------------------------------------0----3-----------|
b--------0----------3----2-------------3------0---2----2-----------|
g--------0----------2--------4---------2------0---0----3-----------|
d-----0-------5-----4--------4---------0------0--------0------0----|
a----------------------------2---0----------------0-----------------|
e-3------------------------------------2------3---------------------|
    Jemmy Grove on his deathbed lay,       For love of Bar - bara Allen.
Comments