Misc Traditional - Auld Lang Syne Chords & Tabs

 

Auld Lang Syne Chords & Tabs

Misc Traditional Chords & Tabs

Version: 1 Type: Tab 0 ratings
1 star 2 stars 3 stars 4 stars 5 stars
comments

Auld Lang Syne Tab

I tried to tune a version that fit this Scottish folk.
An acoustic guitar (Martin 00028EC) was used to make such tab
and pls correct me if I were wrong...:P
Enclosed is another version I got from Guitar Tab universe for comparison.
Enjoy! :)

Auld Lang Syne (tabbed by: Michael Chau)

D|-------7-5-3-5-7----7-10-12-12-10-7-7-----------7-------------
A|--8-7-8----------8-8------------------8-10-8-10---8---------8-
E|8—--------------------------------------------------10-10-8---
[ Tab from: http://www.guitartabs.cc/tabs/m/misc_traditional/auld_lang_syne_tab.html ]
G|7-5-2-2---------7-5-2-2-5-7-7-5-2-2---------------------------
D|--------3-5-3-5—--------------------3-5-3-5-7-----------------
A|----------------------------------------------8---------8-----
E|------------------------------------------------10-10-8-------

Another version: (from Guitar Tab Universe)
e|--------5-------5-----5-8-10-10-8-5-5---------5---------------
B|--6-5-6---8-6-8---6-6-----------------6-8-6-8---6-------6-----
G|5-------------------------------------------------7-7-5-------

e|10-8-5-5---------10-8-5-5-8-10-10-8-5-5---------5-------------
B|---------6-8-6-8------------------------6-8-6-8---6-------6---
G|----------------------------------------------------7-7-5-----

mchchau@hotmail.com
PS: error sending in 1st and 2nd tries due to failure of the server I afflicted
with.  Do wish this try is OK, good luck!
Comments