Misc Traditional - Amazing Grace Chords & Tabs

 

Amazing Grace Chords & Tabs

Misc Traditional Chords & Tabs

Version: 5 Type: Tab 0 ratings
1 star 2 stars 3 stars 4 stars 5 stars
comments

Amazing Grace Tab

e||-------------------------------------------------
B||-----0---0---------------0---0---3---0-3--3-0----
G||---0---0---2-0---------0---0---2--------------0--
D||-0--------------2-0--0---------------------------
A||-------------------------------------------------
E||-------------------------------------------------


e||--------------------------------
B||-------------------0---0--------
G||------0-0--------0---0---2-0----
D||--0-2-----2-0--0----------------
A||--------------------------------
E||--------------------------------
[ Tab from: http://www.guitartabs.cc/tabs/m/misc_traditional/amazing_grace_tab_ver_5.html ]
Comments