Misc Traditional - All Through The Night Chords & Tabs

 

All Through The Night Chords & Tabs

Misc Traditional Chords & Tabs

Version: 1 Type: Tab 1 rating
1 star 2 stars 3 stars 4 stars 5 stars
comments

All Through The Night Tab

#----------------------------------PLEASE NOTE---------------------------------#
#This file is the author's own work and represents their interpretation of the #
#song. You may only use this file for private study, scholarship, or research. #
#------------------------------------------------------------------------------##
From: kharding@lamar.ColoState.EDU (Karol Harding)

A classic lullaby....

ALL THROUGH THE NIGHT

Easy TAB for beginners
by Karol Henderson Harding 1994
(verses listed below)                        3/4 time

E|--3----2--0-----|-5-----3--2-----|-0---2---2--3-----|
B|----------------|--------------3-|-------3----0-----|
G|----0--------0--|------------2---|--0---------0-----|
D|----------------|---7------0-----|-----0----------0-|
A|----------3-----|-7--------------|-3------------2---|
E|--3-------------|----------------|------------3-----|

 (repeat of 1st line:)
[ Tab from: http://www.guitartabs.cc/tabs/m/misc_traditional/all_through_the_night_tab.html ]
E|--3----2--0---3-|-5-----3--2-----|-0---2---2--3-----|
B|------------1---|--------------3-|---1---3----0-----|
G|----0-----------|------------2---|------------0-----|
D|----------------|---7------0-----|-----0---------0-5|
A|----------3-----|-7--------------|-3------------2---|
E|--3-------------|----------------|------------3-----|


E|-8--7--8---10---|-12--10---8--7--|--8--7--5--3--|-7--5--3----2-|
B|----------------|----------------|--------------|---------2--3-|
G|----------------|----------------|--------------|------------2-|
D|-7--5--7--------|-10-------7-----|--7--5--4-----|-5-----2----0-|
A|----------------|----------------|--------------|--------------|
E|----------------|----------------|--------------|--------------|

(2nd line repeats:)

E|--3----2--0---3-|-5-----3--2-----|-0---2---2--3-----|
B|------------1---|--------------3-|---1---3----0-----|
G|----0-----------|------------2---|------------0-----|
D|----------------|---7------0-----|-----0--------0---|
A|----------3-----|-7--------------|-3--------------2-|
E|--3-------------|----------------|------------3-----|
Comments