Misc Traditional - Advance Australia Fair Chords & Tabs

 

Advance Australia Fair Chords & Tabs

Misc Traditional Chords & Tabs

Version: 1 Type: Tab 0 ratings
1 star 2 stars 3 stars 4 stars 5 stars
comments

Advance Australia Fair Tab

   
#----------------------------------PLEASE NOTE---------------------------------#
#This file is the author's own work and represents their interpretation of the #
#song. You may only use this file for private study, scholarship, or research. #
#------------------------------------------------------------------------------##
#

Date: Thu, 7 Nov 1996 14:39:00 +1100 (EST)
From: mike 
Subject: advance australia fair

Advance Australia Fair
The Australian National Anthem
Maestoso 4/4



      C                              G7 C    G   C    G7
E --------------------------------0------------------------------
B ----1---------------1---1---1------3--1----0----1---3---------
G -0-----0---------0---------------------------------------------
D -------------2-------------------------------------------------
A ---------------------------------------------------------------
E ---------------------------------------------------------------
  G   C  G     e   G  C   C   C   e  d  C    b    C   d
  Australians all let us rejoice for we are young and free


        C                               Am6  G/B  C  G/D  d  G
E --------------------------------------0------------------------
B ------1------------------------------------3----1--0-----------
G 0---------0-----------0------0---0----------------------2--0---
D -------------2-------------------------------------------------
A ------------------3--------------------------------------------
E ---------------------------------------------------------------
  G     C   G  e    C   G      G   G     e   d    C  b    a  G 
  We've golden soil and wealth for toil, our home is girt by sea
[ Tab from: http://www.guitartabs.cc/tabs/m/misc_traditional/advance_australia_fair_tab.html ]
  
  C  F               C                F   C  Dm  C    G
E -------------------------------------------1---0---------------
B --------0-1-----------------------------1-----------3----------
G 0--2------------2--0-------------0--2--------------------------
D ---------------------2-----2-----------------------------------
A ---------------------------------------------------------------
E ---------------------------------------------------------------
 G   a    b C     a  G e     e     G  a   C  F    e   d
 Our land abounds in natures gifts of beuaty rich and rare


  C  F                  Am7 C/G  Am    G  C       F6  G   C
E ----------------------------------------0----------------------
B --------0----1-------------1---1-----3-------1--3---0---1------
G 0--2--------------2---0----------------------------------------
D ---------------------------------------------------------------
A ---------------------------------------------------------------
E ---------------------------------------------------------------
  G  a    b    C    a   G    C   C     d  e     C  d  b   C
  In history's page let ev'--ry  stage ad-vanve Australia fair


     F  C/G  Dm/F    C    G7/d  F   G/B  Am C/G      G      C
E 0--1--0-----------------------------------0--------------------
B -----------3-------1----0-----2--------1-------1---3--0---1----
G ----------------------------------0----------------------------
D ---------------------------------------------------------------
A ---------------------------------------------------------------
E ---------------------------------------------------------------
  In joyful  strains than let   us sing  Ad-vance Australia Fair.



Am6  x02212
G/B  x20003
G/D  xx0003
Am7  x02213
C/G  3x2010
F6   xx3231
G7/d xx0001

-submitted by Mike Hiltonwood

Comments