Misc Themes - Whose Line Is It Anyway Tv British Theme Chords & Tabs

 

Whose Line Is It Anyway Tv British Theme Chords & Tabs

Misc Themes Chords & Tabs

Version: 1 Type: Tab 0 ratings
1 star 2 stars 3 stars 4 stars 5 stars
comments

Whose Line Is It Anyway Tv British Theme Tab

   
Whose Line Is It Anyway (British) Theme

~ = Let Ring a little..
h = hammer-on
p = pull-off

hoey187@hotmail.com

e|-5-4-2---2~~h4-|-4h5-4-2---2~~~~-|-5-3-2-0-2-3-0-|-6h7-----7-9~~~-|
B|-------4-------|---------3-------|---------------|-----9-7--------|
G|---------------|-----------------|---------------|----------------|
D|---------------|-----------------|---------------|----------------|
A|---------------|-----------------|---------------|----------------|
E|---------------|-----------------|---------------|----------------|
[ Tab from: http://www.guitartabs.cc/tabs/m/misc_themes/whose_line_is_it_anyway_tv_british_theme_tab.html ]
e|-10-9-7---7~~h9-|-9h10-9-7-9-7-|-9--------9-11-|-12-11-9----9-11~~-|
B|--------9-------|--------------|---11-9-7------|---------11--------|
G|----------------|--------------|---------------|-------------------|
D|----------------|--------------|---------------|-------------------|
A|----------------|--------------|---------------|-------------------|
E|----------------|--------------|---------------|-------------------|

e|-12-11-9----13-16-|-------13-16-13-------12p11~p9-|
B|---------11-------|----14----------14-------------|
G|------------------|-13----------------13----------|
D|------------------|-------------------------------|
A|------------------|-------------------------------|
E|------------------|-------------------------------|
Comments