Misc Themes - Transformers The Movie Theme Chords & Tabs

 

Transformers The Movie Theme Chords & Tabs

Misc Themes Chords & Tabs

Version: 1 Type: Tab 0 ratings
1 star 2 stars 3 stars 4 stars 5 stars
comments

Transformers The Movie Theme Tab

Transformers The Movie Theme
[ Tab from: http://www.guitartabs.cc/tabs/m/misc_themes/transformers_the_movie_theme_tab.html ]
Standard tuning. This is the main part to the transformers movie theme. Enjoy!
                                                                        
E||----------------------|----------------------|----------------------|
B||----------------------|----------------------|----------------------|
G||----------------------|----------------------|----------------------|
D||--3----3----3----3----|----------------------|-----------------3----|
A||--3----3----3----3----|-------3---------4----|-------3---------3----|
E||--1----1----1----1----|--1---------1---------|--1---------1----1----|


                        
----------------------||
----------------------||
----------------------||
--3----3----3---------||
--3----3----3----6----||
--1----1----1----6----||

nicks_mem@yahoo.co.uk

Comments