Misc Themes - The Pink Panther Theme Chords & Tabs

 

The Pink Panther Theme Chords & Tabs

Misc Themes Chords & Tabs

Version: 1 Type: Bass Tab 0 ratings
1 star 2 stars 3 stars 4 stars 5 stars
comments

The Pink Panther Theme Bass Tab

The pink PANTHER THEME. by Henry Mancini (i think)
tabbed by alex kerr 31/3/2003 (superfunkeeal@hotmail.com)
e-mail me for any comments, corrections, love letters, 
death threats, etc
GUIDANCE

this is the way i play it for solo bass, taking all the key points from the 
arrangement for quartet.add hammer-ons/pull-offs, muted notes and slides as 
you feel it deserves. me, i hammer-on when i want a softer sound 
as im ascending a few frets, and the same for pull-offs and descending a few 
frets. slide up to high notes, such as the high E (9th fret on the g string). 
for emphasis on the beat, try a quarter note mute, and dig in so you get a 
nice loud click, like a hand clap.
this is a acid jazz tune, and has a swing rhythym.this 
explains the use of chromatic, non-chord notes. also, the breakdown at the 7th 
position is the E minor blues scale, which gives it a bluesy taste. this is a 
good warm-up routine for your left hand, making sure you use ALL your fingers! 
plus, if your granny ever wants you to play here a tune, and all you know 
is "i wanna f*** a dog in the ass" , well, now you can play something she knows.
above all, be cool.

g----------------------------------------------------------------------
d----------------------------------------------------------------------
a-4-5-6-7------7-----4-5-6-7-----7---6-5-4-3--------3-----4-5-6-7----7-
e-----------7-----------------7----------------3-------------------7---

g------------------------5-4-----4-3-------------
d----------4-5-------4-5-----4-5--------7-5------
a-4-5-6-7--------6-7------------------------5-7--
e------------------------------------------------

g------------------------5-4------9-8--------------
d----------4-5-------4-5-----4-5----------7-5------
a-4-5-6-7--------6-7--------------------------5-7--
e--------------------------------------------------
[ Tab from: http://www.guitartabs.cc/tabs/m/misc_themes/the_pink_panther_theme_btab.html ]
g------------------------5-4-----4-3-------------
d----------4-5-------4-5-----4-5--------7-5------
a-4-5-6-7--------6-7------------------------5-7--
e------------------------------------------------

g--9---9-7------------------------------------------
d----------9-7-------8-7--8-7--8-7--8-7-------------
a--------------10-7---------------------------------
e---------------------------------------------------

g---------------------------------------
d---7-5-----------------7-5-------------
a-------5-7--7--6-5--4------5-7--4-5-6--
e---------------------------------------

g-------------------------------
d---7-5-----------------7-5-----
a-------5-7--7--6-5--4------5-7-
e-------------------------------

g------------------------5-4-----4-3-------------
d----------4-5-------4-5-----4-5--------7-5------
a-4-5-6-7--------6-7------------------------5-7--
e------------------------------------------------

g------------------------5-4------9-8--------------
d----------4-5-------4-5-----4-5----------7-5------
a-4-5-6-7--------6-7--------------------------5-7--
e--------------------------------------------------

g------------------------5-4-----4-3-------------
d----------4-5-------4-5-----4-5--------7-5------
a-4-5-6-7--------6-7------------------------5-7--
e------------------------------------------------

g--9---9-7------------------------------------------
d----------9-7-------8-7--8-7--8-7--8-7-------------
a--------------10-7---------------------------------
e---------------------------------------------------

g---------------------------------------------------------------------------
d---7-5-----------------7-5------------7-5-----------------7-5--------------
a-------5-7--7--6-5--4------5-7--4-5-6-----5-7--7--6-5--4------5-7--4-5-6-7-
e---------------------------------------------------------------------------

The End
Comments