Misc Themes - Super Mario Bros Game Over Chords & Tabs

 

Super Mario Bros Game Over Chords & Tabs

Misc Themes Chords & Tabs

Version: 1 Type: Tab 2 ratings
1 star 2 stars 3 stars 4 stars 5 stars
comments

Super Mario Bros Game Over Tab

   
Song: Super Mario Bros - Game Over
Band: N/A
Tabbed by: SpRiNgWaFfLe
[ Tab from: http://www.guitartabs.cc/tabs/m/misc_themes/super_mario_bros_game_over_tab.html ]
e--------------------------------
b-1----------0-------------------
g----0-----2----2--1-3--1--0---0-
d-------2--------------------3---
a--------------------------------
e--------------------------------

Or, an octave lower:

e--------------------------------
b--------------------------------
g--------------------------------
d--------------------------------
a-3--------0-2--0----1-----------
e----3--0----------4----4--3-1-3-
Comments