Misc Themes - Shawn Michaels Sexy Boy Chords & Tabs

 

Shawn Michaels Sexy Boy Chords & Tabs

Misc Themes Chords & Tabs

Version: 1 Type: Tab 0 ratings
1 star 2 stars 3 stars 4 stars 5 stars
comments

Shawn Michaels Sexy Boy Tab

This is the amazing theme of the professional wrestler Shawn Michaels!

(p)=short pause
 . = palm mute note

Intro
-------------------------------
-------------------------------
-------------------------------
-7-7-7-7-7-7-7-7-7-7-7-7-------
-7-7-7-7-7-7-7-7-7-7-7-7-------
-5-5-5-5-5-5-5-5-5-5-5-5-------
 . .   . .   . .   . .

Verse
[ Tab from: http://www.guitartabs.cc/tabs/m/misc_themes/shawn_michaels_sexy_boy_tab.html ]
----------------------------------------
----------------------------------------
---------5-5----------------------------  Repeat 2x
-7-7-(p)-5-5-3-3-(p)-5-5-(p)-5-7-7-(p)--
-7-7-(p)-3-3-3-3-(p)-5-5-(p)-5-7-7-(p)--
-5-5-(p)-----1-1-(p)-3-3-(p)-3-5-5-(p)--

Chorus (that won't sound great cause there's not damn guitar in that chorus!!!)

-----------------------------------------
-----------------------------------------
-14-14-14-12-14-14----------------------- Repeat 3x
-x--x--x--x--x--x------------------------
-12-12-12-10-12-12-----------------------
-----------------------------------------

Verse

Chorus

Solo
(don't count on me to tab it! It's just so difficult!!!

Chorus (x3)

If you figure out the solo, e-mail it at julesveine@hotmail.com
Thanx!
Comments