Misc Themes - Secret Agent Man Chords & Tabs

 

Secret Agent Man Chords & Tabs

Misc Themes Chords & Tabs

Version: 1 Type: Tab 3 ratings
1 star 2 stars 3 stars 4 stars 5 stars
comments

Secret Agent Man Tab

Here is a cool song i've know since i started playing: 
                     Secret Agent Man(James Bond Theme)

E--0--0--0--0--0--0--0-
B-0--0--1--1--2--2--1--1---Repeat
G------------------------------
B------------------------------
A------------------------------
E------------------------------
[ Tab from: http://www.guitartabs.cc/tabs/m/misc_themes/secret_agent_man_tab.html ]
E-----------------------
B-----------------------
G-----------------------
D-----------------------
A------2-0---0----------
E-0-0-3----0-3-3-0-0----

Heres part of the other one:

E---------------
B---------------
G---------------
D------------------------------------------------20
A---------------------------------------------------2-0-2-2p0h2
E-0-2-2-2-0-0-0-3-3-3-0-0-0-2-2-2-0-0-0-3-3-3-2-0---------------0h3p0
Comments