Misc Themes - Pink Panther Theme Chords & Tabs

 

Pink Panther Theme Chords & Tabs

Misc Themes Chords & Tabs

Version: 1 Type: Tab 18 ratings
1 star 2 stars 3 stars 4 stars 5 stars
comments

Pink Panther Theme Tab

                -Pink Panther Theme-

[ Tab from: http://www.guitartabs.cc/tabs/m/misc_themes/pink_panther_theme_tab.html ]
|-------------------------------------------------|
|-------------------------------------------------|
|----------------------5/4------5/4--2p0----------|
|--1/2--4/5--1/2--4/5-------2h5----------2p0h2----|
|-------------------------------------------------|
|-------------------------------------------------|

|-------------------------------------------------|
|----------------------------5/4------------------|
|------------------5/4------------2p0-------------|
|--4/5--1/2--4/5--------2h5-----------2p0h2-------|
|-------------------------------------------------|
|-------------------------------------------------|


This is completely accurate! cya
Comments