Misc Themes - Metal Gear Solid 2 Chords & Tabs

 

Metal Gear Solid 2 Chords & Tabs

Misc Themes Chords & Tabs

Version: 1 Type: Tab 0 ratings
1 star 2 stars 3 stars 4 stars 5 stars
comments

Metal Gear Solid 2 Tab

|-------------------------------------------------|
|--------------------------10-8-------------------|
|-9-7-5--7-9---9-7--5-7-9-------9-5-7-------------|
|------------7------------------------------------|
|-------------------------------------------------|
|-------------------------------------------------|

|-------------------------------------------------|
|---10-13--12-13-15-13-10--8-10-12--13-12-10-8-10-|
|-9-----------------------------------------------|
|-------------------------------------------------|
|-------------------------------------------------|
|-------------------------------------------------|

[ Tab from: http://www.guitartabs.cc/tabs/m/misc_themes/metal_gear_solid_2_tab.html ]
Comments