Misc Themes - Kakario Song From Zelda Chords & Tabs

 

Kakario Song From Zelda Chords & Tabs

Misc Themes Chords & Tabs

Version: 1 Type: Tab 1 rating
1 star 2 stars 3 stars 4 stars 5 stars
comments

Kakario Song From Zelda Tab

this is the first tab I've done but I know it's right.
[ Tab from: http://www.guitartabs.cc/tabs/m/misc_themes/kakario_song_from_zelda_tab.html ]
--------------------------------------------------
--------------------------------------------------
------------0-------------0---0-2---2-0-----------
--------2-------------2-----------------2-2-2-0---
---3------3-------3-----3---------2-------------3-
-3---3----------3---3-----------------------------

--------------------------------------------------
--------------------------------------------------
--------------------------------------0-----------
-------0------------------------0-------3-2-0-----
-3-3-2---3----------------3-3-2---3-----------3---
-----------3--1-0-1-3-0-------------3-------------
Comments