Misc Themes - Heartbreak High Chords & Tabs

 

Heartbreak High Chords & Tabs

Misc Themes Chords & Tabs

Version: 1 Type: Tab 0 ratings
1 star 2 stars 3 stars 4 stars 5 stars
comments

Heartbreak High Tab

Heartbreak High (theme)
[ Tab from: http://www.guitartabs.cc/tabs/m/misc_themes/heartbreak_high_tab.html ]
E:-----------------------------------------------------------
B:--------------------------7b--7-5-----5v-------------------
G:----------------6--7--9v-----------7-----------------------
D:---5h7--7--5h7---------------------------------------------
A:-----------------------------------------------------------
E:-----------------------------------------------------------

E:-----------------------------------------------------------
B:-----------------------------------------------------------
G:----------------6b--6-------------------------------2v-----
D:---5h7--7--5h7---------9--7v----4h5--5--4h5--4-s-2---------
A:-----------------------------------------------------------
E:-----------------------------------------------------------

ambidash@hotmail.com
Comments