Misc Themes - Harry Potter Chords & Tabs

 

Harry Potter Chords & Tabs

Misc Themes Chords & Tabs

Version: 2 Type: Tab 4 ratings
1 star 2 stars 3 stars 4 stars 5 stars
comments

Harry Potter Tab

E------------------------------------------- 
B------------------------12---10---7------ 
G-----9--12--11--9----------------------- 
D-9----------------------------------------- 
A-------------------------------------------
E-------------------------------------------- 


E------------------------------------------- 
B------------------------7----------------- 
G-----9--12--11--9----------------------- 
D-9-------------------------9-------------- 
A-------------------------------------------
E-------------------------------------------- 

[ Tab from: http://www.guitartabs.cc/tabs/m/misc_themes/harry_potter_tab_ver_2.html ]
E-------------------------------------------------------------------------- 
B------------------------12---15---14--13--9--13--12--11--7--8----- 
G-----9--12--11--9---------------------------------------------------9-- 
D-9------------------------------------------------------------------------ 
A--------------------------------------------------------------------------
E--------------------------------------------------------------------------


E-------------------------------------------------------------------------- 
B--8--12--8--12--8--13--12--11--8--12--8------8--12--------------
G-------------------------------------------------8----------------------- 
D-------------------------------------------------------------------------- 
A--------------------------------------------------------------------------
E--------------------------------------------------------------------------


E-------------------------------------------------------------------------- 
B--8--12--8--12--8--15--14--13--8--12--9--13--12--11--7--8-----
G-----------------------------------------------------------------------9- 
D-------------------------------------------------------------------------- 
A--------------------------------------------------------------------------
E--------------------------------------------------------------------------
Comments