Misc Themes - Gladiator Soundtrack Maximus Chords & Tabs

 

Gladiator Soundtrack Maximus Chords & Tabs

Misc Themes Chords & Tabs

Version: 1 Type: Tab 2 ratings
1 star 2 stars 3 stars 4 stars 5 stars
comments

Gladiator Soundtrack Maximus Tab

   
This little piece is very melancholic, so play it slowly. Try to arppegiate all
the chords then it sounds better. Be very careful where you play loudly and where
silently it is very important in this song.

Tuning: E to D
[ Tab from: http://www.guitartabs.cc/tabs/m/misc_themes/gladiator_soundtrack_maximus_tab.html ]
e-------------5--10--13---3--1--0----3--5--1--0-----------1--3--1--0-------
h------------6------------3-----1--------------3-----3-----3-----3-----1-------
g-----------7-------------3--------0-----------2-----3--2--------3-------0-0---
D-0----0------------------5-----2--------------0-----5-----------5-----2-------
A-0----0------------------5-----3--------------0-----5-----------5-----3-------
D-0----0---------------------------------------------0-------------------------
                                                                              

e-0----------------------------------------------------------------------------
h---3-1----3----3-----3-----3----3---3------------1-----------1-------------3--
g----------2--2-------2-----2----2---3--3-3-------0---0-0-----0-------------2--
D----------0--------------0-----3----5------------2-----------2-------------0--
A----------0--------0-----------------------------3-----------3-------------0--
D------------------------------------5---------3--0---------3-0---2---0-----0--
Comments