Misc Television - Xmen Chords & Tabs

 

Xmen Chords & Tabs

Misc Television Chords & Tabs

Version: 2 Type: Tab 2 ratings
1 star 2 stars 3 stars 4 stars 5 stars
comments

Xmen Tab

X-Men
(Marvel Comics)

Hey, This is my 1st tab and I'm positive it's all right. It looks hard to follow
but it's easy, listen to the song for the right rythems, (the begining messes
people up).
Later,
Spencer Black - spence@spence.8m.com

Stuff to know:
% = Repeat Phrase Before 
/ = Slide Up
|:---:| = play the phrase take the 1st ending, start
          at the beginning of the dots, then second
          ending, ect.
() = Ghost Notes
                                                    _1___  _2___  _3____
                                                   |      |      |
e-|----|---|---|---|---|---|---|----------3-|-2-0--------|------|--3-2-0---------|
B-|----|---|---|---|---|---|---|--------5---|-------0----|--1---|----------------|
G-|-15-|-%-|-%-|-%-|-%-|-%-|-%-|-:----4-----|-----------:|-----:|--------(4-5/9)-|
D-|-12-|---|---|---|---|---|---|----2-------|------------|------|----------------|
A-|-12-|---|---|---|---|---|---|------------|------------|------|----------------|
E-|----|---|---|---|---|---|---|------------|------------|------|----------------|
[ Tab from: http://www.guitartabs.cc/tabs/m/misc_television/xmen_tab_ver_2.html ]
                       _1__    _2__
                      |       |
e-|--------5-8-|-7-----------|--1---------3--|-2-0-3-|-2-0-----------
B-|------5-----|---9----5----|----------5----|-------|---------------
G-|-:--2-------|------------:|--------4------|-------|-----(4-5/9)---
D-|------------|-------------|------2--------|-------|---------------
A-|------------|-------------|---------------|-------|---------------
E-|------------|-------------|---------------|-------|---------------

e-|-------|---|---|---|--------|---|---|---|-0-----|---|---|----0-13-12-----|
B-|-------|---|---|---|-3-1-0--|---|---|---|---3-1-|---|---|-3--------------|
G-|-5-4-2-|-%-|-%-|-%-|--------|-%-|-%-|-%-|-------|-%-|-%-|----------------|
D-|-------|---|---|---|--------|---|---|---|-------|---|---|----------------|
A-|-------|---|---|---|--------|---|---|---|-------|---|---|------------(2)-|
E-|-------|---|---|---|--------|---|---|---|-------|---|---|----------------|

e-|-------3--|-2-1-3-|-8-12---|
B-|-----5----|-------|--------|
G-|---4------|-------|--------|
D-|-2--------|-------|--------|
A-|----------|-------|--------|
E-|----------|-------|--------|
Comments