Misc Television - Xmen Chords & Tabs

 

Xmen Chords & Tabs

Misc Television Chords & Tabs

Version: 1 Type: Tab 2 ratings
1 star 2 stars 3 stars 4 stars 5 stars
comments

Xmen Tab

---------------------------------
Title:X-men cartoon
Artist:Tv
Tabbed by:zorpheus99
E-mail:zorpheus99@hotmail.com
---------------------------------

h:hammer on

1|------------------|----------------|----------------|------------
2|------------------|----------------|----------------|------------
3|------------------|----------------|----------------|------------
4|------0h2---4-2---|------0h2-4-2-5-|------0h2-4-2---|-4-2----2---
5|-0h2------------2-|-0h2------------|-0h2----------2-|-----2------
6|------------------|----------------|----------------|------------
[ Tab from: http://www.guitartabs.cc/tabs/m/misc_television/xmen_tab.html ]
1|------------------|----------------|----------------|------------
2|------------------|----------------|----------------|------------
3|------------------|----------------|----------------|------------
4|------2h4---6-4---|------2h4-6-4-7-|------2h4-6-4---|-6-4---4----
5|-2h4------------4-|-2h4------------|-2h4----------4-|-----4------
6|------------------|----------------|----------------|------------

This is the part where the music builds up towards the end.

1|-----------------------------------------------------------------
2|-----------------------------------------------------------------
3|-----------------------------------------------------------------
4|-------------------------------------------------5h7-9-----------
5|-3h5-3h5-3h5-3h5-4h6-4h6-4h6-4h6-5h7-5h7-5h7-5h7-----------------
6|-----------------------------------------------------------------

This is the final part!

1|-----------------------
2|-----------------------
3|-----------------------
4|-----0h2-4-2-5---2-----
5|-0h2-----------2-------
6|-----------------------

That's it!There you go Dan. Its really simple, so anyone can do it. 
If you have anycomments, corrections, or requests, my e-mail's up 
at the top of the page. Until then, peace out!



Comments