Misc Television - X Files Chords & Tabs

 

X Files Chords & Tabs

Misc Television Chords & Tabs

Version: 2 Type: Tab 4 ratings
1 star 2 stars 3 stars 4 stars 5 stars
comments

X Files Tab

This is the best sounding version. Trust me. Or trust no one.   
Either way try it and see. The truth is out there. And here it is.
Jerry Lambert, Princeton WV

I tabbed this myself and it is correct. I am a genius.

(r)= let ring
(h)= hammer on

This version sounds the closest to the theme.

E  ----8---6---8---11---8(r)-----------8---6---8---13---8(r)--------
B  -6-------------------------------6-------------------------------
G  -----------------------------------------------------------------
D  -----------------------------------------------------------------
A  -----------------------0-0-h2-h3-----------------------0-0-h2-h3
E  -----------------------------------------------------------------

[ Tab from: http://www.guitartabs.cc/tabs/m/misc_television/x_files_tab_ver_2.html ]
E  --16--15--13--11--13---------------------------------------------
B  ------------------------13(r)------------------------------------
G  -----------------------------------------------------------------
D  ----------------------------------------------------------------- 
A---------------------------------0-0-h2-h3----2--3-----------------
E  -----------------------------------------------------------------


This version is slightly higher but it sounds realy cool.

E  ----10---8---10---13---10(r)---------10---8--10--15---10(r)-------
B  --8-------------------------------8-------------------------------
G  ------------------------------------------------------------------
D  ------------------------------------------------------------------
A---------------------------0-0-h2-h3----------------------0-0-h2-h3-
E--------------------------------------------------------------------


E  --18--17--15--13--15----------------------------------------------
B  -----------------------15(r)--------------------------------------
G  ------------------------------------------------------------------
D  ------------------------------------------------------------------
A  --------------------------- 0-0-h2-h3-----2--3--------------------
E  ------------------------------------------------------------------

Tab by Jerry Lambert, Princeton WV. 2351@citlink.net
11/03/01    ~Go Yankees~
Comments