Misc Television - Wwf Stone Cold Theme Chords & Tabs

 

Wwf Stone Cold Theme Chords & Tabs

Misc Television Chords & Tabs

Version: 1 Type: Tab 0 ratings
1 star 2 stars 3 stars 4 stars 5 stars
comments

Wwf Stone Cold Theme Tab

Title: Stone Cold Steve Austin Theme
submitted by treyrab
treyrab@hotmail.com

------------------------------------------------------------------------------
-------------------0----------------------------------------------------------
------------------------------------------------------------------------------
-2--2--3--3--2--2-------------------------------------------------------------
-2--2--3--3--2--2--0----------------------------------------------------------
-0--0--1--1--0--0-------------------------------------------------------------
                                                                              

-13--12--13--12---------------------------------------------------------------
-15--12--13--12---------------------------------------------------------------
------------------------------------------------------------------------------
------------------------------------------------------------------------------
------------------------------------------------------------------------------
------------------------------------------------------------------------------
  Lead Guitar                                                                 
[ Tab from: http://www.guitartabs.cc/tabs/m/misc_television/wwf_stone_cold_theme_tab.html ]
------------------------------------------------------------------------------
------------------------------------------------------------------------------
------------------------------------------------------------------------------
-2--2--3--3--2--2--3--3--5----------------------------------------------------
-2--2--3--3--2--2--3--3--5----------------------------------------------------
-0--0--1--1--0--0--1--1--3----------------------------------------------------
                                                                              

-15---------------------------------------------------------------------------
-15---------------------------------------------------------------------------
------------------------------------------------------------------------------
------------------------------------------------------------------------------
------------------------------------------------------------------------------
------------------------------------------------------------------------------
 Lead guitar plays this while riff above is played                            

-0--6--0--6--0--6--0--6--0--6--7--------------------------------------Guitar 2
----------------------------------0-------------------------------------------
------------------------------------------------------------------------------
------------------------------------------------------------------------------
----------------------------------0-------------------------------------------
-0--6--0--6--0--6--0--6--0--6--7--------------------------------------Guitar 1
                                                                              

-0--6--0--6--0--6--0--6--0--8--7--------------------------------------Guiatr 2
------------------------------------------------------------------------------
------------------------------------------------------------------------------
------------------------------------------------------------------------------
------------------------------------------------------------------------------
-0--6--0--6--0--6--0--6--0--8--7--------------------------------------Guitar 1
                                                                              
Comments