Misc Television - Viva La Bam Theme Chords & Tabs

 

Viva La Bam Theme Chords & Tabs

Misc Television Chords & Tabs

Version: 1 Type: Tab 0 ratings
1 star 2 stars 3 stars 4 stars 5 stars
comments

Viva La Bam Theme Tab

   
Viva la Bam

By Rem-Prezent, Amsterdam, The Netherlands

Rem_Prezent@Hotmail.com

I've put some extra space in between the tab parts so you can see it all clearly.

(Dont watch my language, I don't speak english that well.. hehe ^_^)


e:------------------------------------|
B:------------------------------------|
G:------------------------------------|
D:------------------------------------| x2
A:----------------------------------5-|
E:-0-0-3--0-0-0-3--0-0-0-3--0-5-6-7---|





e:------------------------------------|
B:------------------------------------|
G:------------------------------------|
D:------------------------------------|
A:----------------------------------5-|
E:-0-0-3--0-0-0-3--0-0-0-3--0-5-6-7---|





Then here comes the part of "king of rock and roll.."
(rock n roll... rock n roll... im the king of rock n roll...)

e:--------------------------------------------------|
B:--------------------------------------------------|
G:--------------------------------------------------|
D:--------------------------------------------------|
A:-7-7-7-7-7-7-7-7-7-7-7-7-7--5-5-5-5-5-5-5-5-5-5-5-|
E:-5-5-5-5-5-5-5-5-5-5-5-5-5--3-3-3-3-3-3-3-3-3-3-3-|




[ Tab from: http://www.guitartabs.cc/tabs/m/misc_television/viva_la_bam_theme_tab.html ]
e:----------------------------------------------------------------------------------------|
B:-----------------------8------------8------------------------------8--------------------|
G:--9--7--9-7--9-7--9~~------9-7---------9--9~~---9p7---7-9p7---7-9-----9p7---7-9p7-9p7---|
D:--------------------------------9-------------------9-------9-------------9-----------9-|
A:----------------------------------------------------------------------------------------|
E:----------------------------------------------------------------------------------------|





e:-----------------------------------------|
B:-----------------------8----8---8--------|
G:--9--7--9-7--9-7--9~~-----9---9---9--9~~-|
D:-----------------------------------------|
A:-----------------------------------------|
E:-----------------------------------------|





e:-------------------------------------------------|
B:-141414141414141414141414-1212121212121212121212-|
G:-141414141414141414141414-1212121212121212121212-|
D:-------------------------------------------------|
A:-------------------------------------------------|
E:-------------------------------------------------|





e:-12/15-15/18-18/21-21/--------|
B:------------------------------|
G:------------------------------|
D:------------------------------|
A:------------------------------|
E:------------------------------|
Comments