Misc Television - Top Gear Chords & Tabs

 

Top Gear Chords & Tabs

Misc Television Chords & Tabs

Version: 1 Type: Tab 1 rating
1 star 2 stars 3 stars 4 stars 5 stars
comments

Top Gear Tab

Top Gear Theme

E--------------9---10---10/12---10---9--------------------------------
B---------10--------------------------------10----------------------------
G----9-------------------------------------------9---7---6---7---9------
D---------------------------------------------------------------------------
A---------------------------------------------------------------------------
E---------------------------------------------------------------------------
[ Tab from: http://www.guitartabs.cc/tabs/m/misc_television/top_gear_tab.html ]
E--------------9---10---10/12---10---9--------------------------------
B---------10--------------------------------10----------------------------
G----9-------------------------------------------9---7---6---7---9------
D----------------------------------------------------------------------7----
A---------------------------------------------------------------------------
E---------------------------------------------------------------------------

E--------------9—10---10/12---10---9--------------------------------
B---------10--------------------------------10----------------------------
G----9-------------------------------------------9---7---6---7--9/11\9
D---------------------------------------------------------------------------
A---------------------------------------------------------------------------
E---------------------------------------------------------------------------

I’ve been searching everywhere for a good tab for this tune cause it sounds gr8!

Needs loads of distortion though.

My first tab so I hope its right!
Have fun with it!
Comments