Misc Television - Tiny Toon Adventures Chords & Tabs

 

Tiny Toon Adventures Chords & Tabs

Misc Television Chords & Tabs

Version: 1 Type: Tab 1 rating
1 star 2 stars 3 stars 4 stars 5 stars
comments

Tiny Toon Adventures Tab

Tiny Toon Adventures
Tabbed by springwaffle

e---------------------------------------------------
b-------------------------------------------0h1h2h3-
g---------------------------------1h2p1h2-3---------
d---------0h1p0h1-2h3p2h3-4h5p4h5-------------------
a-3h4p3h4-------------------------------------------
e---------------------------------------------------

e----------0----------2---0--------------0-------5-4-5-6-7-
b-3-0-3--3---3--3-0-3---3---3--3-1-3-3-3---3-3-3-----------
g----------------------------------------------------------
d----------------------------------------------------------
a----------------------------------------------------------
e----------------------------------------------------------

e-2---2--2-4-2--2---2-6-2-4-2--2---2-2-2---6-6-6-7-6-7-8-9-
b---4-------------4--------------4-------2-----------------
g----------------------------------------------------------
d----------------------------------------------------------
a----------------------------------------------------------
e----------------------------------------------------------
[ Tab from: http://www.guitartabs.cc/tabs/m/misc_television/tiny_toon_adventures_tab.html ]
e----11-11----8----------------------6--------------------------------9----10-
b-11-------11---11-11-9-8-11----8----4-------8-9-----8-9-11--11-10-12---10----
g----------------------------10---8-----8-10------10--------------------------
d-----------------------------------------------------------------------------
a-----------------------------------------------------------------------------
e-----------------------------------------------------------------------------

e----------0--------3-7-3-0------7-6-7---0-2-3-5-6--5--3-
b-3-0-3--3---3--3-3---------3--3-------3-----------------
g--------------------------------------------------------
d--------------------------------------------------------
a--------------------------------------------------------
e--------------------------------------------------------

e-15----12--------------------------3-
b----15----15-15-13-12-15----15-----3-
g-------------------------14----12--0-
d-----------------------------------0-
a-----------------------------------2-
e-----------------------------------3-

Corrections/comments/etc. can be sent to: springwaffle@comcast.net
Comments