Misc Television - The Simpsons Chords & Tabs

 

The Simpsons Chords & Tabs

Misc Television Chords & Tabs

Version: 1 Type: Tab 1 rating
1 star 2 stars 3 stars 4 stars 5 stars
comments

The Simpsons Tab

#-----------------------------------------------------------------------------#
#-- File created with Instab - http://www.pconline.com/~smcarey/instab.html --#
#-----------------------------------------------------------------------------#

Author/Artist: Not Sure.....
Title: The Simpsons
Album: Fox on Sunday Nights
Transcribed by: Charlie Rosenbury
Email: freshnchunky@hotmaill.com

I've looked at the other one out there, and I like this way better...

--------------------------|---------------------|-----------------------------
--------------------------|---------------------|-----------------------------
-------2-0----------------|---------------------|-----------------------------
---2-4-----2--------------|---------------------|-----------------------------
-3-----------3-0----------|---------2-----------|---------2-3-3-3-3v----------
-----------------2-2-2-3v-|-2-2-2-3----2-2-2-3v-|-2-2-2-3---------------------
 and the Gracie Films thing:                                                  

------------------------------------------------------------------------------
------------------------------------------------------------------------------
------------------------------------------------------------------------------
------------------------------------------------------------------------------
-3/7-10-8-7-5-3-3-3-----------------------------------------------------------
------------------------------------------------------------------------------
 OR the higher version:                                                       
[ Tab from: http://www.guitartabs.cc/tabs/m/misc_television/the_simpsons_tab.html ]
---0-2-5-3v-0--------------|---------------------|----------------------------
-1------------1------------|---------------------|----------------------------
----------------2----------|---------4-----------|---------4-5-5-5-5v---------
------------------4-4-4-5v-|-4-4-4-5----4-4-4-5v-|-4-4-4-5--------------------
---------------------------|---------------------|----------------------------
---------------------------|---------------------|----------------------------
 OR the higher HIGHER version:                                                

----12-14-17-15v-12--------------------|-----------------------------|--------
-13-----------------13-----------------|-------------12--------------|--------
-----------------------14-11-11-11-12v-|-11-11-11-12----11-11-11-12v-|--------
---------------------------------------|-----------------------------|--------
---------------------------------------|-----------------------------|--------
---------------------------------------|-----------------------------|--------
                                                                              

------------------------------------------------------------------------------
-------------12-13-13-13-13v--------------------------------------------------
-11-11-11-12------------------------------------------------------------------
------------------------------------------------------------------------------
------------------------------------------------------------------------------
------------------------------------------------------------------------------
                                                                              

Comments