Misc Television - The Munsters Theme Chords & Tabs

 

The Munsters Theme Chords & Tabs

Misc Television Chords & Tabs

Version: 1 Type: Tab 0 ratings
1 star 2 stars 3 stars 4 stars 5 stars
comments

The Munsters Theme Tab

The Munsters theme
Tabbed by springwaffle

This is a correction/modification/improvement of another tab.

e------------------------------0------------------------------------------
b----------------------------0---1-0-----0--------------------------------
g----3-4------3-4------0---3---------2-----2-0--2-0----------3-4------3-4-
d-2--------2--------2----2--------------------------4-2-0-2--------2------
a-------------------------------------------------------------------------
e-------------------------------------------------------------------------

e------------0----------------------------------------
b----------0---1-0---------0--------------------------
g----0---3---------2---0-2---------------3-4------3-4-
d-2----2---------------------------1--2--------2------
a----------------------------2-2-4--------------------
e-----------------------------------------------------
[ Tab from: http://www.guitartabs.cc/tabs/m/misc_television/the_munsters_theme_tab.html ]
e---------------------------15\-------/5--3-2-3-0-2---
b----3--3--3--1--0-1---0----------------------------4-
g----2--2--2---------2---0-------2--2-----------------
d-0--0--0--0---------------------2--2-----------------
a--------------------------------0--0-----------------
e-----------------------------------------------------

e------------0---------------------------------
b----------0---1-0-----0----------12-----------
g----0---3---------2-----2-0---------14-12-----
d-2----2----------------------2-------------14-
a----------------------------------------------
e----------------------------------------------

e-------------------------------------/5--3-2-3-0-2---
b----3--3--3p1p0---0-------0-3----------------------4-
g----2--2--------2---0---0-------2--2-----------------
d-0--0--0--------------0---------2--2-----------------
a--------------------------------0--0-----------------
e-----------------------------------------------------

e------------0-------------------------
b----------0---1-0-----0---------------
g----0---3---------2-----2-0---------9-
d-2----2----------------------2---9--9-
a---------------------------------9--7-
e---------------------------------7----

Corrections/comments/etc. can be sent to: springwaffle@comcast.net
Comments