Misc Television - The Flinstones Theme Chords & Tabs

 

The Flinstones Theme Chords & Tabs

Misc Television Chords & Tabs

Version: 1 Type: Tab 0 ratings
1 star 2 stars 3 stars 4 stars 5 stars
comments

The Flinstones Theme Tab

-------3--0-----------------------------------------3--0----------------------
-3-----------3-----3--1--0--0--1--3--------0--3-----------3-----3--1--0--0----
----0-----------0--------------------0--2--------0-----------0----------------
------------------------------------------------------------------------------
------------------------------------------------------------------------------
------------------------------------------------------------------------------
                                                                              
[ Tab from: http://www.guitartabs.cc/tabs/m/misc_television/the_flinstones_theme_tab.html ]
---------------4-----5--4--4--2--2--4--2--2-----3--2--2--0--0--2--0--------3--
-1--3-------------2--------------------------0-----------------------3--------
------0--2--0-----------------------------------------------------------0-----
------------------------------------------------------------------------------
------------------------------------------------------------------------------
------------------------------------------------------------------------------
                                                                              

--0--------------------------------------------------------3--5--3------------
-----3-----3--1--0--0--1--3--------0--1--3--------0--1--3---------------------
--------0--------------------0--2-----------0--2------------------------------
------------------------------------------------------------------------------
------------------------------------------------------------------------------
------------------------------------------------------------------------------
                                                                              
Comments