Misc Television - Tales From The Crypt Chords & Tabs

 

Tales From The Crypt Chords & Tabs

Misc Television Chords & Tabs

Version: 1 Type: Tab 0 ratings
1 star 2 stars 3 stars 4 stars 5 stars
comments

Tales From The Crypt Tab

I was looking for this theme song to "Tales form the crypt" and I saw 
the version already submitted was a little off.  So I decide to figure
it out myself and spread my knowledge to all those who LOVE Danny 
Elfman...in a striclty plantonic way of course!

Alright, so here it is...I've only tabbed the main melody:

Standard tuning

[ Tab from: http://www.guitartabs.cc/tabs/m/misc_television/tales_from_the_crypt_tab.html ]
e------5-7-6-------------5-----------------7-6----------------------
B----7-------7---------7-------------6-7-9-----7-7-6----------------
G--8-----------8-----8-------------7-----------------8-7-8~---------
D----------------7-8--------8--7-8----------------------------------
A-------------------------------------------------------------------
E-------------------------------------------------------------------

e------7-9-8----------------7-------------------9-8-----------------
B----9-------9------------9--------------8-9-11-----9-9-8-----------
G-10-----------10------10--------------9------------------10-9-10~--
D-----------------9-10---------10-9-10------------------------------
A-------------------------------------------------------------------
E-------------------------------------------------------------------

Welp, I hope it brings a joy to anyone who wanted to play this little 
ditty!  Alright, take care!  

-Isaiah
Comments