Misc Television - Spongebob Squarepants Closing Theme Chords & Tabs

 

Spongebob Squarepants Closing Theme Chords & Tabs

Misc Television Chords & Tabs

Version: 1 Type: Tab 2 ratings
1 star 2 stars 3 stars 4 stars 5 stars
comments

Spongebob Squarepants Closing Theme Tab

Song = SpongeBob SquarePants Closing Theme
Tuning = EADgbe (standard)
Tabber = Dumpy The Destroyer

x = muted
 = slide
-PM- = palm mute wherever indicated
() = harmonics
~ = let ring
^ = bend

There are two guitars in this song.  One's an acoustic guitar that plays
in my tab all sections labeled A.  The other sounds like a clean electirc 
(or ukelele if you have one) which is section B.

Fig 1 (A)
e|----------------------------------------------------------------------|
b|----------------------------------------------------------------------|
g|----------------------------------------------------------------------|
D|----------------------------------------------------------------------|
A|----------------------------------------------------------------------|
E|-0--x--7----0--x--7----0--x--7----0--x--7-----------------------------|
Repeat this troughout the song except for when u play Fig 4.


Fig 2 (B)
e|-7--6-7--9-7-----------7--6-7--9-7------------------------------------|
b|----------------------------------------------------------------------|
g|----------------------------------------------------------------------|
D|----------------------------------------------------------------------|
A|----------------------------------------------------------------------|
E|----------------------------------------------------------------------|
Repeat this twice then...

[ Tab from: http://www.guitartabs.cc/tabs/m/misc_television/spongebob_squarepants_closing_theme_tab.html ]
Fig 3 (B)
e|-12--12----14-16-14-16-14----12--12--12-14-15-15-15-15-1412----------|
b|----------------------------------------------------------------------|
g|----------------------------------------------------------------------|
D|----------------------------------------------------------------------|
A|----------------------------------------------------------------------|
E|----------------------------------------------------------------------|
In synchronization with...
Fig 4 (A)
e|----------------------------------------------------------------------|
b|----------------------------------------------------------------------|
g|----------------------------------------------------------------------|
D|----------------------------------------------------------------------|
A|-7---7-----9--11-9--11-9-------------------10-10-10-10--97-----------|
E|-----------------------------0--x--7----------------------------------|


Fig 5 (B)
e|-7--6-7--9-7-----------7--6-7--9-7---11--12^~-------------------------|
b|----------------------------------------------------------------------|
g|----------------------------------------------------------------------|
D|----------------------------------------------------------------------|
A|----------------------------------------------------------------------|
E|----------------------------------------------------------------------|
While guitar A plays Fig 1 again.
Comments