Misc Television - Spiderman Theme Chords & Tabs

 

Spiderman Theme Chords & Tabs

Misc Television Chords & Tabs

Version: 1 Type: Tab 3 ratings
1 star 2 stars 3 stars 4 stars 5 stars
comments

Spiderman Theme Tab

   
Spiderman theme
Tabbed by springwaffle

This is the original cartoon version (C). I think the Ramones version
is a half a step higher (C#). I'm not for sure on the bridge but it
seems close enough.

  C                     
e-----------------------------------------------------------------------
b-----------------------------------------------------------------------
g----------0-------------------------------0----------0-----------------
d-----1-----------3---1---------------1-----------1--------3---1--------
a-3-----------------------3----3-----------------------------------3----
e-----------------------------------------------------------------------
1 Spi-der Man,    Spi-der Man. Does   what e------ver a    spi--der can.
2 Is  he  strong? Lis-ten bud, he's   got  ra-----di--o----act-ive blood.
3 Spi-der Man,    Spi-der Man. Friend-ly   neigh--bor-hood Spi-der Man.

  F                                 C
e----------------------------------------------------------------------
b------------1---------------------------------------------------------
g--------1----------3----1--------------------0------------------------
d-3-------------------------3------------1-------------3----1----------
a-----------------------------------3----------------------------3-----
e----------------------------------------------------------------------
1 Spins  a   web,   an---y  size.   Cat--ches theives, just like flies.
2 Can    he  swing, from a  thread? Take a    look,    o----ver  head.
3 Wealth and fame,  he's ig-nored.  Act--ion  is       his  re---ward.
[ Tab from: http://www.guitartabs.cc/tabs/m/misc_television/spiderman_theme_tab.html ]
  G                                   C
e-----------------------------------------
b-----------------------------------------
g-------------0---------------------------
d-------------------3-----1---3---1-------
a-5----5------------------------------3---
e-3----3----------------------------------
1 Look out!   Here  comes the Spi-der Man.
2 Hey  there! There goes  the Spi-der Man. (to bridge)
3 (go to end)

 Bridge
         D#       A#            F          C
e-------------------------------------------------
b-------------------------------------------------
g----1---3b----1----------------------------------
d-3---------------3---------1---3-----1--0--------
a------------------------3-----------------3------
e-------------------------------------------------
  In the chill of night, at the scene of a crime.

         D#        A#            F            G
e-------------------------------------------------
b-------------------------------------------------
g------1-3b-----1-----------------------------0---
d-3----------------3---------1---3----1----0------
a-------------------------3-----------------------
e-------------------------------------------------
  Like a streak of light, he arr-ives just in time.

 End
  G                               C    G                         C    G
e------------------------------------------------------------------------
b------------------------------------------------------------------------
g-------------0----------------------------0-----------------------------
d------------------3--1-3-----1--------1---------3--1--3-------1------1--
a-5----5--------------------------3------------------------------3-------
e-3----3-----------------------------------------------------------------
  To   him,   life is a great big bang-up. Where-ev-er there's a hang-up,

                          C
e-------------------------0---
b-------------------------1---
g-0-------------------0---0---
d--------3----1---3-----------
a-----------------------------
e-----------------------------
  you'll find the Spi-der Man!

Corrections/comments/etc. can be sent to: springwaffle@comcast.net
Comments