Misc Television - Sesame Street Theme Chords & Tabs

 

Sesame Street Theme Chords & Tabs

Misc Television Chords & Tabs

Version: 1 Type: Tab 0 ratings
1 star 2 stars 3 stars 4 stars 5 stars
comments

Sesame Street Theme Tab

Title: Sesame Street
submitted by treyrab
treyrab@hotmail.com
[ Tab from: http://www.guitartabs.cc/tabs/m/misc_television/sesame_street_theme_tab.html ]
------------------------------------------------------------------------------
------------------------------------------------------------------------------
-5--2--------0--2--5--2-----5--2--------0--2--4--5--7--5--7--8--7--5--2--0----
-------3--3--------------3--------3--3----------------------------------------
------------------------------------------------------------------------------
------------------------------------------------------------------------------
                                                                              

------------------------------------------------------------------------------
----------------1--1--1-------------------------------------------------------
-0--2--3--2--0----------------------------------------------------------------
------------------------------------------------------------------------------
------------------------------------------------------------------------------
------------------------------------------------------------------------------
Comments