Misc Television - Seinfeld Theme Chords & Tabs

 

Seinfeld Theme Chords & Tabs

Misc Television Chords & Tabs

Version: 1 Type: Bass Tab

Seinfeld Theme Bass Tab

   
----------------------------------------------------------------------------
			   Seinfeld Theme Song
----------------------------------------------------------------------------

Tabbed By : Corbs
e-mail: dream.of.waking@hotmail.com

Tuning: Standard (E,A,D,G)

| /  slide up
| \  slide down
| h  hammer-on
| s  slap
| p  pop
| .  staccato


    Intro Fill
    .  .   .  .  .      .  .   
G|-12--10------------|-------------------|
D|---------12-10-8---|-------------------|
A|-------------------|--10--8------------|
E|-------------------|----------10-8-6\--|
    p   p   p  p p       p  p    s s s             
                                                       
       Main Riff                                        .
G|------------------------------------------------------5------------------|
D|------------3------------------------------------------------------------|
A|-------2--5-----2--3-3--1-0---------00--1-2---3--------------------------|
E|-3---3----------------------4--3-33--------------------------------------|
   s   s s  s p   s  s s  s s s  s ss ss  s s   s       p
[ Tab from: http://www.guitartabs.cc/tabs/m/misc_television/seinfeld_theme_btab.html ]
                                                        .
G|------------------------------------------------------5------------------|
D|------------3------------------------------------------------------------|
A|-------2--5-----2--3-3--1-0---------00--1-2---3--------------------------|
E|-3---3----------------------4--3-33--------------------------------------|
   s   s s  s p   s  s s  s s s  s ss ss  s s   s       p
              .      . .                  . .   .       .    Fill
G|-------------------------------------------------|-/15-------------------|
D|------------3------------------------------------|-------17--15---13-----|
A|-------2--5-----2--3-3--1-0---------00--1-2---3--|-----------------15-13-|
E|-3---3----------------------4--3-33--------------|-----------------------|
   s   s s  s p   s  s s  s s s  s ss ss  s s   s     p     p   p    pp  p
              .      . .                  . .           .
G|-------------------------------------------------|-----------------------|
D|------------3------------------------------------|-3345------------------|
A|-------2--5-----2--3-3--1-0---------00--1-2---3--|-----------------------|
E|-3---3----------------------4--3-33--------------|-----------------------|
   s   s s  s p   s  s s  s s s  s ss ss  s s   s    pppp