Misc Television - Scooby Doo Main Tv Theme Chords & Tabs

 

Scooby Doo Main Tv Theme Chords & Tabs

Misc Television Chords & Tabs

Version: 1 Type: Tab 0 ratings
1 star 2 stars 3 stars 4 stars 5 stars
comments

Scooby Doo Main Tv Theme Tab

Scooby Doo Theme

I just figured this out not so long ago, just listen to the recording 
for timing. Enojy :D
                                                                     
E||------------------|------------------|--12--12--10--10--8--------|
B||------------------|------------------|---------------------------|
G||------------------|------------------|---------------------------|
D||------------------|------------------|---------------------------|
A||------------------|------------------|---------------------------|
E||------------------|------------------|---------------------------|


                                                                          
--10--13------------------|--7---------12----12--10--|----8--------------|
------------10--------10--|-------8------------------|-------------------|
--------------------------|--------------------------|-------------------|
--------------------------|--------------------------|-------------------|
--------------------------|--------------------------|-------------------|
--------------------------|--------------------------|-------------------|


                                                       
--12--12--10--10--8--------|--10--12----13------------|
---------------------------|--------------------------|
---------------------------|--------------------14----|
---------------------------|--------------------------|
---------------------------|--------------------------|
---------------------------|--------------------------|


                                                                             
--------------12----12--10--|----8--------------|--12--12--10--10--8--------|
----------------------------|-------------------|---------------------------|
--12----12------------------|-------------------|---------------------------|
----------------------------|-------------------|---------------------------|
----------------------------|-------------------|---------------------------|
----------------------------|-------------------|---------------------------|


                                                                            
--10--13------------------|--7--7-------12----12--10--|----12--------------|
------------10--------10--|--------8------------------|--------------------|
--------------------------|---------------------------|--------------------|
--------------------------|---------------------------|--------------------|
--------------------------|---------------------------|--------------------|
--------------------------|---------------------------|--------------------|


                                                        
--12--12--10--10--8------8--|--10--12----13------------|
----------------------------|--------------------------|
----------------------------|--------------------14----|
----------------------------|--------------------------|
----------------------------|--------------------------|
----------------------------|--------------------------|

[ Tab from: http://www.guitartabs.cc/tabs/m/misc_television/scooby_doo_main_tv_theme_tab.html ]
                                                      
--------------12----12--10--|----8--------8--10--12--|
----------------------------|------------------------|
--12----12------------------|------------------------|
----------------------------|------------------------|
----------------------------|------------------------|
----------------------------|------------------------|


                                                                      
--13--12--13--12--13--12--13--12--|--13-12-13----12--13-13-13---13---|
----------------------------------|----------------------------------|
----------------------------------|----------------------------------|
----------------------------------|----------------------------------|
----------------------------------|----------------------------------|
----------------------------------|----------------------------------|


                                                    
--12----------15---15---|--12--------------10--12--|
------------------------|--------------13----------|
------------------------|--------------------------|
------------------------|--------------------------|
------------------------|--------------------------|
------------------------|--------------------------|


                                                                    
--13--12--13--12--13--12--13--12--|--13--12--13--12--13--14----15--|
----------------------------------|--------------------------------|
----------------------------------|--------------------------------|
----------------------------------|--------------------------------|
----------------------------------|--------------------------------|
----------------------------------|--------------------------------|


                                                                        
------------15---15---|--15----------------|--12--12--10--10--8--------|
----------------------|--------------------|---------------------------|
----------------------|--------------------|---------------------------|
----------------------|--------------------|---------------------------|
----------------------|--------------------|---------------------------|
----------------------|--------------------|---------------------------|


                                                                             
--10--13------------------|------------12----12--10--|----12----------------|
------------10--------10--|--8----8------------------|----------------------|
--------------------------|--------------------------|------------------12--|
--------------------------|--------------------------|----------------------|
--------------------------|--------------------------|----------------------|
--------------------------|--------------------------|----------------------|


                                                       
--12--12--10--10--8--------|--10--12----13------------|
---------------------------|--------------------------|
---------------------------|--------------------14----|
---------------------------|--------------------------|
---------------------------|--------------------------|
---------------------------|--------------------------|


                                                  
--------------12----12--10--|----8--------------||
----------------------------|-------------------||
--12----12------------------|-------------------||
----------------------------|-------------------||
----------------------------|-------------------||
----------------------------|-------------------||

Comments etc... to: nicks_mem@yahoo.co.uk


Comments