Misc Television - Robot Chicken Theme Chords & Tabs

 

Robot Chicken Theme Chords & Tabs

Misc Television Chords & Tabs

Version: 1 Type: Tab 0 ratings
1 star 2 stars 3 stars 4 stars 5 stars
comments

Robot Chicken Theme Tab

   
----------------------------------------------------------------------------
			     SONG NAME - Band Name
----------------------------------------------------------------------------
Tabbed by: samstallard
Email: unico

Tuning: Standard E A D G b E

This is the theme from my favorite [adult swim] show Robot chicken. I'd use an electric
guitar with a slight distortion. You need to use power picking for some parts of this
song which means to set the base of your palm on the lowE and A strings and move your
hand rapidly from side to side and pick the high|e string cause that's the only one you
play on the power picking part.
[ Tab from: http://www.guitartabs.cc/tabs/m/misc_television/robot_chicken_theme_tab.html ]
      
e|-------------------------------------------------------|
B|-------------------------------------------------------|
G|-------------------------------------------------------|
D|--7--7-7--7--------------------------------------------|
A|--7--7-7--7--------------------------------------------|
E|--5--5-5--5---6--6-6-6---6--6-6-6---6--6-6-6-5---------|
    
e|-------------------------------------------------------|
B|-------------------------------------------------------|
G|-------------------------------------------------------|
D|-------------------------------------------------------|
A|-------------------------------------------------------|
E|--6--6-6-6---6--6-6-6---6--6-6-6--5-55555--------------|



Here's the second part of the song.
Here's where you power pick.


e|--566666-566666-566666-5--566666-566666-566666-5-55555-|
B|-------------------------------------------------------|
G|-------------------------------------------------------|
D|-------------------------------------------------------|
A|-------------------------------------------------------|
E|-------------------------------------------------------|


e|--566666-566666-566666-5--566666-566666-566666-5-55555-|
B|-------------------------------------------------------|
G|-------------------------------------------------------|
D|-------------------------------------------------------|
A|-------------------------------------------------------|
E|-------------------------------------------------------|



e|--566666-566666-566666-5--555-6------------------------|
B|-------------------------------------------------------|
G|-------------------------------------------------------|
D|-------------------------------------------------------|
A|-------------------------------------------------------|
E|-------------------------------------------------------|



fill free to e-mail comments!
Comments