Misc Television - Ren And Stimpy Outro Chords & Tabs

 

Ren And Stimpy Outro Chords & Tabs

Misc Television Chords & Tabs

Version: 1 Type: Tab 0 ratings
1 star 2 stars 3 stars 4 stars 5 stars
comments

Ren And Stimpy Outro Tab

Title: Ren & Stimpy Outro Theme!
Transcribed by: Roach [7-19-2k2]
               (recycledroach@charter-nal.com)


This a little diddy I picked out by experimentation. I never found an
accurate tab for it so I made one myself. I left out the solo because I
never got it quite right, so just improv a little. By the way, this is
my first post.

LEGEND
***********************************
  1                               *
10^ - bend 1 whole step           *
  1/2                             *
10^ - bend 1/2 step (get it yet?) *
                                  *
10h12 - hammer-on                 *
                                  *
10p8 - pull-off                   *
  1                               *
10^\ - bend up, bend back down    *
                                  *
10~ - let note ring               *
                                  *
5s10 - slide                      *
***********************************



Standard E tuning
       1               1/2     1/2      1/2 1
e|---10^--------------------------------------------------------|
B|-----------12p10----------------------------------------------|
G|----------------11p9---------9^-------9^\9^~\---------9-------|
D|--------------------12^--------12------------12-9-12~--12-----|
A|--------------------------------------------------------------|
E|--------------------------------------------------------------|
[ Tab from: http://www.guitartabs.cc/tabs/m/misc_television/ren_and_stimpy_outro_tab.html ]
                              3/4                  1   1  1
e|---------------------------10^~----------------10^\10^10^|
B|------10-10-10-------10--------12~p10--10~---12----------|
G|--9s11-----------------11p9----------11------------------|
D|---------------------------------------------------------|
A|---------------------------------------------------------|
E|---------------------------------------------------------|


e|---------------------{--------------------------------|
B|--12p10--10~---------{-----10----10----10----10-------|
G|-------11-----11p9---{-9h11--9h11--9h11--9h11--11p9---|
D|------------------12-{-----------------------------12-|
A|---------------------{--------------------------------|
E|---------------------{--------------------------------|

        1/4             1/2
e|-----------------------------|    Repeat all 
B|--10s12^~12-12p10------------|   until { marks and
G|-----------------11p9--------| then play the following:
D|---------------------12^~10--|
A|-----------------------------|
E|-----------------------------|


e|------------------10^--------7--5--\
B|--10-10-10-----------12~12~--7--5--\
G|-----------11-9-11-----------------solo          END
D|----------------------------------improv
A|-----------------------------------/
E|-----------------------------------/


Well there it is, I hope you like it. I know a few places may sound a
little out of place/key, but this is playing it by ear, and only small
changes should be needed, if any. Listen to the NICK version and find
out if its "close enough."

RoAcH
recycledroach@charter-nal.com


Comments