Misc Television - Red Dwarf Theme Chords & Tabs

 

Red Dwarf Theme Chords & Tabs

Misc Television Chords & Tabs

Version: 1 Type: Tab

Red Dwarf Theme Tab

The Red Dwarf Theme Tune

Intro:
e-------------------------------|
B-------------------------------|
G-------------------------------|
D-------------0---------------0-|
A---0---2---3-------0---2---3---|
E-3---------------3-------------|

Riff 1: 
e---0---3-3---5---3---5---7---8-|
B-------------------------------|
G-5-----------------------------|
D-------------------------------|
A-------------------------------|
E-------------------------------|

Riff 2:
e----0---3---1---0---5-5---7---8-8---7---5---7---8-|
B--------------------------------------------------|
G-5------------------------------------------------|
D--------------------------------------------------|
A--------------------------------------------------|
E--------------------------------------------------|
[ Tab from: http://www.guitartabs.cc/tabs/m/misc_television/red_dwarf_theme_tab.html ]
Riff 3:
e-3---6---5---5-5------------|
B------------------3---9---8-|
G----------------------------|
D----------------------------|
A----------------------------|
E----------------------------|

Repeat Riffs 1 - 3 and then...

Riff 4:
e---------------------------------|
B-5---11---10---10-10---3---9---8-|
G---------------------------------|
D---------------------------------|
A---------------------------------|
E---------------------------------|


Riff 5
e----------------------------------------------------0-|
B----------------------------------------------------1-|
G----------------------------------------------------0-|
D--------------0--------------0----------------0-----2-|
A---0---2---3-------0---2---3--------0---2---3----3--3-|
E-3---------------3----------------3-----------------x-|