Misc Television - Red Dwarf Chords & Tabs

 

Red Dwarf Chords & Tabs

Misc Television Chords & Tabs

Version: 1 Type: Tab 1 rating
1 star 2 stars 3 stars 4 stars 5 stars
comments

Red Dwarf Tab

   
The Red Dwarf Guitar ThemeRed Dwarf Theme
by Howard Goodall, 1988 Noel Gay Music LTD



CHORDS-                                       C    C/E     F
      
NOTES-                            WV   WV                     HO
||-----------------------------|-----------|--------------|----------------7-8--|
||--------(Sound: Starbug------|-------8---|-------8-(8)--|--8--10----8-10------|
||-----------fly-over)---------|-----------|-----9--------|---------------------|
||-----------------------------|--5--------|--10----------|---------------------|
||-----------------------------|-----------|--------------|---------------------|
||-----------------------------|-----------|--------------|---------------------|



   C           Bf6                    A                          F
  
     BU                PO               BU    BD                   BU    BD
|--------------13-12-13--12----12--|--------------------------|--15--(17)--(15)-------|
|--15--(17)--X--------------15-----|--15--(17)--(15)--14------|-----------------18-X--|
|----------------------------------|----------------------14--|-----------------------|
|----------------------------------|--------------------------|-----------------------|
|----------------------------------|--------------------------|-----------------------|
|----------------------------------|--------------------------|-----------------------|



   D7/F#                        C/G        Bf            A      Dm           Af5
[ Tab from: http://www.guitartabs.cc/tabs/m/misc_television/red_dwarf_tab.html ]
     BU         RP              BU                                BU    BD       PO
|-----------17---------------|------------------------|------|------------------------|
|--17--(19)----(19)------15--|----(16)------15----13--|--12--|------------------------|
|----------------------------|------------------------|------|--10--(13)--(10)--8--7--|
|----------------------------|------------------------|------|------------------------|
|----------------------------|------------------------|------|------------------------|
|----------------------------|------------------------|------|------------------------|



   G       C              Bf                    A      Dm           Ab5              G

|-------|------------------------------------|------|-----------------------------|-----|
|-------|--------------------11-11-11-11-11--|--10--|------------------9-9-9-9-9--|--8--|
|--(7)--|----9-10-12-10-9--------------------|------|----7-9-10-9-7---------------|-----|
|-------|------------------------------------|------|-----------------------------|-----|
|-------|------------------------------------|------|-----------------------------|-----|
|-------|------------------------------------|------|-----------------------------|-----|



   NC                                       C

|--------------------|-------------------|----------------||
|--------------------|-------------------|----------------||
|-----------4--5--7--|----------4--5--7--|--5-------------||
|-----5--7-----------|----5--7-----------|--------10------||
|--------------------|-------------------|--------10------||
|--------------------|-------------------|--------8-------||



Explanation of notation:

WV:  WIDE VIBRATO.
BU:  BEND UP to the pitch of the bracketed note which follows.
BD:  BEND DOWN from the pitch of the bracketed note to the next bracketed note.
HO:  HAMMER ON by picking the first note then fretting the following note.
PO:  PULL OFF from the first note to sound the following note.
RP:  REPICK the bracketed note.
X:   Muted note.



Back to Sup's Smegging Red Dwarf Page





Comments