Misc Television - Popeye The Sailor Man Chords & Tabs

 

Popeye The Sailor Man Chords & Tabs

Misc Television Chords & Tabs

Version: 3 Type: Tab 0 ratings
1 star 2 stars 3 stars 4 stars 5 stars
comments

Popeye The Sailor Man Tab



   
   
   
   JB

[ Tab from: http://www.guitartabs.cc/tabs/m/misc_television/popeye_the_sailor_man_tab_ver_3.html ]
Theme From: James Bond 007
Tabbed by: Austin Powers (Logan Stewart)
E-Mail: Log2_man68@Hotmail.com
 
 
e|---------------------------------------------------------
B|---------------------------------------------------------
G|---------------------------------------------------------
D|---------------------------------------------------------                        
x2
A|---2--2--2--2---3--3--3--3---4--4--4--4---2--2--2--2
E|---0--0--0--0---0--0--0--0---0--0--0--0---0--0--0--0
 
e|------------------------------------------------------------
B|------------------------------------------------------------
G|------------------------------------------------------------
D|------------------------------------------------------------
A|------------------------------------------------------------
E|---0--2--2--2--2---0--0--0--0---3--3--3--3---2--2--2--2
 
e|---------------------------
B|-----------7--6-----------
G|---0--6-----------0--6--7
D|--------------------------
A|--------------------------
E|---------------------------


Comments