Misc Television - Popeye The Sailor Man Chords & Tabs

 

Popeye The Sailor Man Chords & Tabs

Misc Television Chords & Tabs

Version: 1 Type: Tab 0 ratings
1 star 2 stars 3 stars 4 stars 5 stars
comments

Popeye The Sailor Man Tab

   
Song: Popeye the Sailor Man
Band: N/A
Tabbed by: SpRiNgWaFfLe [springwaffle@comcast.net]

I couldn't find a good tab of this so I did it myself.
This is the original Popeye theme.

Intro
e------------------------------------------
b------------------------------------------
g-3-5-5-5---0-1--3-3-3-----0--1-1-1--------
d---------3------------1-3----------0--0-1-
a------------------------------------------
e------------------------------------------

e--------------------------------
b--------------------------4-----
g-0-3-3-3-1-0-3----3-5---5---5-3-
d----------------------6---------
a--------------------------------
e--------------------------------

e------------------------------------------
b---------4p3------------------------------
g-3-5---5------5-3-5-3-0---------5-3-1-----
d-----6------------------1-------------0h1-
a----------------------------3-1-----------
e------------------------------------------

e------------------------------------------
b------------------------------------------
g-3-5-5-5---0-1--3-3-3-----0--1-1-1------3-
d---------3------------1-3----------0--0---
a------------------------------------------
e------------------------------------------
[ Tab from: http://www.guitartabs.cc/tabs/m/misc_television/popeye_the_sailor_man_tab.html ]
e------------------------------------------
b------------------------------------------
g-3-5-5-5---0-1--3-3-3-----0--1-1-1--------
d---------3------------1-3----------0--0-1-
a------------------------------------------
e------------------------------------------

e---------------------------------------
b---------------4-----------------------
g-3-5-1-1-1-3-5----0-0--0-3-0-0-0-1-3-5-
d---------------------------------------
a---------------------------------------
e---------------------------------------

e------------------------------------------
b------------------------------------------
g-3-5-5-5---0-1--3-3-3-----0--1-1-1--------
d---------3------------1-3----------0--0-1-
a------------------------------------------
e------------------------------------------

e--------------------------------
b--------------------------4-----
g-0-3-3-3-1-0-3----3-5---5---5-3-
d----------------------6---------
a--------------------------------
e--------------------------------

e------------------------------------------
b---------4p3------------------------------
g-3-5---5------5-3-5-3-0---------5-3-1-----
d-----6------------------1-------------0h1-
a----------------------------3-1-----------
e------------------------------------------

That's about it. Peace.
Comments