Misc Television - Pink Panther Chords & Tabs

 

Pink Panther Chords & Tabs

Misc Television Chords & Tabs

Version: 5 Type: Tab 1 rating
1 star 2 stars 3 stars 4 stars 5 stars
comments

Pink Panther Tab

This is the Pink Panther theme song:

e:-----------------------|-----------------------------|
B:-----------------------|-----------------------------|
G:-----------------------|-5-4---0---4-3---2-0---------|
D:-1-2---4-5---1-2---4-5-|-----2---------------2-0-2-2-|
A:-----------------------|-----------------------------|
E:-----------------------|-----------------------------|
[ Tab from: http://www.guitartabs.cc/tabs/m/misc_television/pink_panther_tab_ver_5.html ]
e:-----------------------|-----------0-----0-----------|
B:-----------------------|-------------4-----3-0-------|
G:-----------------------|-5-4---0---------------2-0---|
D:-1-2---4-5---1-2---4-5-|-----2-----------------------|
A:-----------------------|-----------------------------|
E:-----------------------|-----------------------------|

e:-----------------------|-----------------------------|
B:-----------------------|-----------------------------|
G:---3-2--3-2--3-2---2-0-|-----------------------------|
D:-2---------------------|-2-0-2-2---------------------|
A:-----------------------|-----------------------------|
E:-----------------------|-----------------------------|

If you have any questions at all, email me at bjvanwash01@yahoo.com
Comments