Misc Television - Nfl Theme Chords & Tabs

 

Nfl Theme Chords & Tabs

Misc Television Chords & Tabs

Version: 1 Type: Tab 1 rating
1 star 2 stars 3 stars 4 stars 5 stars
comments

Nfl Theme Tab


This is the nfl theme (its not the whole thing or is it EXACTLY right)

I will get the rest of it figured out later

|---------------15----------------16-----------------15-15-16-20-19|
|13-15-16-15-13----13-15-16-15-13----13-15-16-15-13----------------|
|------------------------------------------------------------------|
|------------------------------------------------------------------|
|------------------------------------------------------------------|
|------------------------------------------------------------------|
[ Tab from: http://www.guitartabs.cc/tabs/m/misc_television/nfl_theme_tab.html ]
|-8-10-11-8-10-11-8-10-11-13-10---8-10-11-8-10-11-8-10-11-15-13----|
|---------------------------------------------------------------15-|
|------------------------------------------------------------------|
|------------------------------------------------------------------|
|------------------------------------------------------------------|
|------------------------------------------------------------------|

|15-16-20-19-------------------------------------------------------|
|------------------------------------------------------------------|
|------------------------------------------------------------------|
|------------------------------------------------------------------|
|------------------------------------------------------------------|
|------------------------------------------------------------------|

This Tab Was figured out by me and a friend 
if you have ne questions or comments e-mail me at moto_x2@swbell.net

Proving this tabs is mine i would like to say one thing to a friend(s)

HA DENNIS,COLIN,JAMES,JONATHAN,BRAD,MATT(lol inside joke) 

FROM MIKE!
Comments