Misc Television - Nba On Nbc Chords & Tabs

 

Nba On Nbc Chords & Tabs

Misc Television Chords & Tabs

Version: 1 Type: Tab 0 ratings
1 star 2 stars 3 stars 4 stars 5 stars
comments

Nba On Nbc Tab

NBA on NBC Theme Song

watched the NBA Playoffs, loved listening to this song. 
had to figure this one out.

I dunno if its right, but I tried and it is my first tab.

Any suggestions/comments, e-mail me at ice6200@hotmail.com

Intro:

e--5--8-8--7--8-7--10--12--|---8--7--3---10--------------------------------------------
B--------------------------|-----------------------------------------------------------
G--------------------------|-----------------------------------------------------------
D--------------------------|-----------------------------------------------------------
A--------------------------|-----------------------------------------------------------
E--------------------------|-----------------------------------------------------------


Riff 1 (Repeat 3x):
[ Tab from: http://www.guitartabs.cc/tabs/m/misc_television/nba_on_nbc_tab.html ]
e--------------------------------------------------------------------------------------
B--------2--2--0-------------0---------------------------------------------------------
G----2------------2--0--2-------2--2--0------------------------------------0-2---------
D----------------------------------------2--0------------------------------------------
A----0-----------------------------------------0--0--3--2--0-----0--3--2-----0---------
E-------------------------------------------------------------3------------3-----------


Riff 2 (Repeat 3x):

e-----------------------------------------|--------------------------------------------
B-----------1--0--------------------------|---------1--0-----5--5--3--1---7-7----------
G---0--2-2---------0---2-2--0-----0-------|-0--2-2--------0----------------------------
D------------------------------3-----3--2-|--------------------------------------------
A-----------------------------------------|--------------------------------------------
E-----------------------------------------|--------------------------------------------

Ending:

e--------------------------------------------------------------------------------------
B-----------1--0--3--5--5--3--1---7--7--5--3--9----------------------------------------
G---0--2-2-----------------------------------------------------------------------------
D--------------------------------------------------------------------------------------
A--------------------------------------------------------------------------------------
E--------------------------------------------------------------------------------------
Comments